  0
SECTION
  2
HEADER
  9
$ACADVER
  1
AC1009
  9
$INSBASE
 10
0.0
 20
0.0
 30
0.0
  9
$EXTMIN
 10
47.371537001537597
 20
56.694489080336098
 30
-0.0015258207003583
  9
$EXTMAX
 10
107.396027082107
 20
116.7118839252646
 30
0.0000000349246037
  9
$LIMMIN
 10
0.0
 20
0.0
  9
$LIMMAX
 10
297.0
 20
210.0
  9
$ORTHOMODE
 70
     0
  9
$REGENMODE
 70
     1
  9
$FILLMODE
 70
     1
  9
$QTEXTMODE
 70
     0
  9
$MIRRTEXT
 70
     1
  9
$DRAGMODE
 70
     2
  9
$LTSCALE
 40
25.399999999999999
  9
$OSMODE
 70
    55
  9
$ATTMODE
 70
     1
  9
$TEXTSIZE
 40
0.2
  9
$TRACEWID
 40
0.05
  9
$TEXTSTYLE
  7
STANDARD
  9
$CLAYER
  8
0
  9
$CELTYPE
  6
CONTINUOUS
  9
$CECOLOR
 62
   256
  9
$DIMSCALE
 40
1.0
  9
$DIMASZ
 40
0.18
  9
$DIMEXO
 40
0.0625
  9
$DIMDLI
 40
0.38
  9
$DIMRND
 40
0.0
  9
$DIMDLE
 40
0.0
  9
$DIMEXE
 40
0.18
  9
$DIMTP
 40
0.0
  9
$DIMTM
 40
0.0
  9
$DIMTXT
 40
0.18
  9
$DIMCEN
 40
0.09
  9
$DIMTSZ
 40
0.0
  9
$DIMTOL
 70
     0
  9
$DIMLIM
 70
     0
  9
$DIMTIH
 70
     1
  9
$DIMTOH
 70
     1
  9
$DIMSE1
 70
     0
  9
$DIMSE2
 70
     0
  9
$DIMTAD
 70
     0
  9
$DIMZIN
 70
     0
  9
$DIMBLK
  1

  9
$DIMASO
 70
     1
  9
$DIMSHO
 70
     1
  9
$DIMPOST
  1

  9
$DIMAPOST
  1

  9
$DIMALT
 70
     0
  9
$DIMALTD
 70
     2
  9
$DIMALTF
 40
25.399999999999999
  9
$DIMLFAC
 40
1.0
  9
$DIMTOFL
 70
     0
  9
$DIMTVP
 40
0.0
  9
$DIMTIX
 70
     0
  9
$DIMSOXD
 70
     0
  9
$DIMSAH
 70
     0
  9
$DIMBLK1
  1

  9
$DIMBLK2
  1

  9
$DIMSTYLE
  2
STANDARD
  9
$DIMCLRD
 70
     0
  9
$DIMCLRE
 70
     0
  9
$DIMCLRT
 70
     0
  9
$DIMTFAC
 40
1.0
  9
$DIMGAP
 40
0.09
  9
$LUNITS
 70
     2
  9
$LUPREC
 70
     4
  9
$SKETCHINC
 40
0.1
  9
$FILLETRAD
 40
0.0
  9
$AUNITS
 70
     0
  9
$AUPREC
 70
     0
  9
$MENU
  1
acad
  9
$ELEVATION
 40
0.0
  9
$PELEVATION
 40
0.0
  9
$THICKNESS
 40
0.0
  9
$LIMCHECK
 70
     0
  9
$BLIPMODE
 70
     0
  9
$CHAMFERA
 40
0.0
  9
$CHAMFERB
 40
0.0
  9
$SKPOLY
 70
     0
  9
$TDCREATE
 40
2305814.0854283799
  9
$TDUPDATE
 40
2455786.6389911808
  9
$TDINDWG
 40
0.0005848843
  9
$TDUSRTIMER
 40
0.0005848148
  9
$USRTIMER
 70
     1
  9
$ANGBASE
 50
0.0
  9
$ANGDIR
 70
     0
  9
$PDMODE
 70
     0
  9
$PDSIZE
 40
0.0
  9
$PLINEWID
 40
0.0
  9
$COORDS
 70
     2
  9
$SPLFRAME
 70
     0
  9
$SPLINETYPE
 70
     6
  9
$SPLINESEGS
 70
     8
  9
$ATTDIA
 70
     0
  9
$ATTREQ
 70
     1
  9
$HANDLING
 70
     1
  9
$HANDSEED
  5
1C5
  9
$SURFTAB1
 70
     6
  9
$SURFTAB2
 70
     6
  9
$SURFTYPE
 70
     6
  9
$SURFU
 70
     6
  9
$SURFV
 70
     6
  9
$UCSNAME
  2

  9
$UCSORG
 10
0.0
 20
0.0
 30
0.0
  9
$UCSXDIR
 10
1.0
 20
0.0
 30
0.0
  9
$UCSYDIR
 10
0.0
 20
1.0
 30
0.0
  9
$PUCSNAME
  2

  9
$PUCSORG
 10
0.0
 20
0.0
 30
0.0
  9
$PUCSXDIR
 10
1.0
 20
0.0
 30
0.0
  9
$PUCSYDIR
 10
0.0
 20
1.0
 30
0.0
  9
$USERI1
 70
     0
  9
$USERI2
 70
     0
  9
$USERI3
 70
     0
  9
$USERI4
 70
     0
  9
$USERI5
 70
     0
  9
$USERR1
 40
0.0
  9
$USERR2
 40
0.0
  9
$USERR3
 40
0.0
  9
$USERR4
 40
0.0
  9
$USERR5
 40
0.0
  9
$WORLDVIEW
 70
     1
  9
$SHADEDGE
 70
     3
  9
$SHADEDIF
 70
    70
  9
$TILEMODE
 70
     1
  9
$MAXACTVP
 70
    16
  9
$PLIMCHECK
 70
     0
  9
$PEXTMIN
 10
1.0000000000000000E+020
 20
1.0000000000000000E+020
 30
1.0000000000000000E+020
  9
$PEXTMAX
 10
-1.0000000000000000E+020
 20
-1.0000000000000000E+020
 30
-1.0000000000000000E+020
  9
$PLIMMIN
 10
0.0
 20
0.0
  9
$PLIMMAX
 10
12.0
 20
9.0
  9
$UNITMODE
 70
     0
  9
$VISRETAIN
 70
     0
  9
$PLINEGEN
 70
     1
  9
$PSLTSCALE
 70
     0
  0
ENDSEC
  0
SECTION
  2
TABLES
  0
TABLE
  2
VPORT
 70
     1
  0
VPORT
  2
*ACTIVE
 70
     0
 10
0.0
 20
0.0
 11
1.0
 21
1.0
 12
77.383782041822315
 22
86.703186502800364
 13
0.0
 23
0.0
 14
1.0
 24
1.0
 15
0.0
 25
0.0
 16
0.0
 26
0.0
 36
1.0
 17
0.0
 27
0.0
 37
0.0
 40
60.48204564372795
 41
1.6253229974160199
 42
50.0
 43
0.0
 44
0.0
 50
0.0
 51
0.0
 71
     0
 72
   100
 73
     1
 74
     1
 75
     0
 76
     0
 77
     0
 78
     0
  0
ENDTAB
  0
TABLE
  2
LTYPE
 70
     2
  0
LTYPE
  2
CONTINUOUS
 70
     0
  3
Solid line
 72
    65
 73
     0
 40
0.0
  0
ENDTAB
  0
TABLE
  2
LAYER
 70
     2
  0
LAYER
  2
0
 70
     0
 62
     7
  6
CONTINUOUS
  0
LAYER
  2
PREDEFINITO
 70
     0
 62
     7
  6
CONTINUOUS
  0
ENDTAB
  0
TABLE
  2
STYLE
 70
     3
  0
STYLE
  2
STANDARD
 70
     0
 40
0.0
 41
1.0
 50
0.0
 71
     0
 42
0.2
  3
txt
  4

  0
ENDTAB
  0
TABLE
  2
VIEW
 70
     0
  0
ENDTAB
  0
TABLE
  2
UCS
 70
     0
  0
ENDTAB
  0
TABLE
  2
APPID
 70
     3
  0
APPID
  2
ACAD
 70
     0
  0
APPID
  2
ACADANNOTATIVE
 70
     0
  0
APPID
  2
ACAD_MLEADERVER
 70
     0
  0
ENDTAB
  0
TABLE
  2
DIMSTYLE
 70
     2
  0
DIMSTYLE
  2
STANDARD
 70
     0
  3

  4

  5

  6

  7

 40
1.0
 41
0.18
 42
0.0625
 43
0.38
 44
0.18
 45
0.0
 46
0.0
 47
0.0
 48
0.0
140
0.18
141
0.09
142
0.0
143
25.399999999999999
144
1.0
145
0.0
146
1.0
147
0.09
 71
     0
 72
     0
 73
     1
 74
     1
 75
     0
 76
     0
 77
     0
 78
     0
170
     0
171
     2
172
     0
173
     0
174
     0
175
     0
176
     0
177
     0
178
     0
  0
ENDTAB
  0
ENDSEC
  0
SECTION
  2
BLOCKS
  0
BLOCK
  8
0
  2
$MODEL_SPACE
 70
     0
 10
0.0
 20
0.0
 30
0.0
  3
$MODEL_SPACE
  1

  0
ENDBLK
  5
170
  8
0
  0
BLOCK
 67
     1
  8
0
  2
$PAPER_SPACE
 70
     0
 10
0.0
 20
0.0
 30
0.0
  3
$PAPER_SPACE
  1

  0
ENDBLK
  5
16C
 67
     1
  8
0
  0
ENDSEC
  0
SECTION
  2
ENTITIES
  0
LINE
  5
24
  8
PREDEFINITO
  6
CONTINUOUS
 62
     7
 10
48.392829685599999
 20
56.702165556499999
 30
0.0
 11
106.39282968560001
 21
56.702165556499999
 31
0.0
  0
LINE
  5
25
  8
PREDEFINITO
  6
CONTINUOUS
 62
     7
 10
47.392829685599999
 20
115.70216555650001
 30
0.0
 11
48.392829956599989
 21
116.7021658275
 31
0.0
  0
LINE
  5
26
  8
PREDEFINITO
  6
CONTINUOUS
 62
     7
 10
106.3928294146
 20
116.7021658275
 30
0.0
 11
107.39282968560001
 21
115.70216555650001
 31
0.0
  0
LINE
  5
27
  8
PREDEFINITO
  6
CONTINUOUS
 62
     7
 10
107.39282968560001
 20
57.702165556499999
 30
0.0
 11
106.39282968560001
 21
56.702165556499999
 31
0.0
  0
LINE
  5
28
  8
PREDEFINITO
  6
CONTINUOUS
 62
     7
 10
48.392829685599999
 20
56.702165556499999
 30
0.0
 11
47.392829685599999
 21
57.702165556499999
 31
0.0
  0
LINE
  5
29
  8
PREDEFINITO
  6
CONTINUOUS
 62
     7
 10
80.194230847299977
 20
115.96098487259999
 30
0.0
 11
78.392829685600006
 21
109.2380642124
 31
0.0
  0
LINE
  5
2A
  8
PREDEFINITO
  6
CONTINUOUS
 62
     7
 10
74.591428523900007
 20
115.96098487259999
 30
0.0
 11
76.392829685600006
 21
109.2380642124
 31
0.0
  0
LINE
  5
2B
  8
PREDEFINITO
  6
CONTINUOUS
 62
     7
 10
76.392829685600006
 20
107.7021658275
 30
0.0
 11
76.392829685600006
 21
109.2380642124
 31
0.0
  0
LINE
  5
2C
  8
PREDEFINITO
  6
CONTINUOUS
 62
     7
 10
78.392829685600006
 20
107.7021658275
 30
0.0
 11
78.392829685600006
 21
109.2380642124
 31
0.0
  0
ARC
  5
2D
  8
PREDEFINITO
  6
CONTINUOUS
 62
     7
 10
77.392829685600006
 20
107.7021658275
 30
0.0
 40
1.0
 50
180.0
 51
0.0
  0
LINE
  5
2E
  8
PREDEFINITO
  6
CONTINUOUS
 62
     7
 10
48.134010640500001
 20
91.503566718199991
 30
0.0
 11
62.321032915899998
 21
87.702165556500006
 31
0.0
  0
LINE
  5
2F
  8
PREDEFINITO
  6
CONTINUOUS
 62
     7
 10
48.134010640500001
 20
81.900764394800007
 30
0.0
 11
62.321032915899998
 21
85.702165556499992
 31
0.0
  0
LINE
  5
30
  8
PREDEFINITO
  6
CONTINUOUS
 62
     7
 10
64.392829685600006
 20
85.702165556499992
 30
0.0
 11
62.321032915899998
 21
85.702165556499992
 31
0.0
  0
LINE
  5
31
  8
PREDEFINITO
  6
CONTINUOUS
 62
     7
 10
64.392829685600006
 20
87.702165556500006
 30
0.0
 11
62.321032915899998
 21
87.702165556500006
 31
0.0
  0
ARC
  5
32
  8
PREDEFINITO
  6
CONTINUOUS
 62
     7
 10
64.392829685600006
 20
86.702165556499978
 30
0.0
 40
1.0
 50
270.0
 51
90.0
  0
LINE
  5
33
  8
PREDEFINITO
  6
CONTINUOUS
 62
     7
 10
106.6516487307
 20
80.900764394799978
 30
0.0
 11
88.732575647700003
 21
85.702165556499992
 31
0.0
  0
LINE
  5
34
  8
PREDEFINITO
  6
CONTINUOUS
 62
     7
 10
106.6516487307
 20
92.503566718199977
 30
0.0
 11
88.732575647700003
 21
87.702165556500006
 31
0.0
  0
LINE
  5
35
  8
PREDEFINITO
  6
CONTINUOUS
 62
     7
 10
86.392829685599992
 20
87.702165556500006
 30
0.0
 11
88.732575647700003
 21
87.702165556500006
 31
0.0
  0
LINE
  5
36
  8
PREDEFINITO
  6
CONTINUOUS
 62
     7
 10
86.392829685599992
 20
85.702165556499992
 30
0.0
 11
88.732575647700003
 21
85.702165556499992
 31
0.0
  0
ARC
  5
37
  8
PREDEFINITO
  6
CONTINUOUS
 62
     7
 10
86.392829685599992
 20
86.702165556499978
 30
0.0
 40
1.0
 50
90.0
 51
270.0
  0
LINE
  5
38
  8
PREDEFINITO
  6
CONTINUOUS
 62
     7
 10
106.3928294146
 20
116.7021658275
 30
0.0
 11
81.160156673600014
 21
116.7021658275
 31
0.0
  0
LINE
  5
39
  8
PREDEFINITO
  6
CONTINUOUS
 62
     7
 10
73.625502697599984
 20
116.7021658275
 30
0.0
 11
48.392829956599989
 21
116.7021658275
 31
0.0
  0
LINE
  5
3A
  8
PREDEFINITO
  6
CONTINUOUS
 62
     7
 10
107.39282968560001
 20
57.702165556499999
 30
0.0
 11
107.39282968560001
 21
79.934838568499998
 31
0.0
  0
LINE
  5
3B
  8
PREDEFINITO
  6
CONTINUOUS
 62
     7
 10
107.39282968560001
 20
93.469492544500014
 30
0.0
 11
107.39282968560001
 21
115.70216555650001
 31
0.0
  0
LINE
  5
3C
  8
PREDEFINITO
  6
CONTINUOUS
 62
     7
 10
47.392829685599999
 20
115.70216555650001
 30
0.0
 11
47.392829685599999
 21
92.469492544500014
 31
0.0
  0
LINE
  5
3D
  8
PREDEFINITO
  6
CONTINUOUS
 62
     7
 10
47.392829685599999
 20
80.934838568499984
 30
0.0
 11
47.392829685599999
 21
57.702165556499999
 31
0.0
  0
ARC
  5
3E
  8
PREDEFINITO
  6
CONTINUOUS
 62
     7
 10
48.392829685599999
 20
92.469492544500014
 30
0.0
 40
1.0
 50
180.0
 51
255.0
  0
ARC
  5
3F
  8
PREDEFINITO
  6
CONTINUOUS
 62
     7
 10
48.392829685599999
 20
80.934838568499984
 30
0.0
 40
1.0
 50
105.0
 51
180.0
  0
ARC
  5
40
  8
PREDEFINITO
  6
CONTINUOUS
 62
     7
 10
73.625502697599984
 20
115.7021658275
 30
0.0
 40
1.0
 50
15.0
 51
90.0
  0
ARC
  5
41
  8
PREDEFINITO
  6
CONTINUOUS
 62
     7
 10
81.160156673600014
 20
115.7021658275
 30
0.0
 40
1.0
 50
90.0
 51
165.0
  0
ARC
  5
42
  8
PREDEFINITO
  6
CONTINUOUS
 62
     7
 10
106.39282968560001
 20
93.469492544500014
 30
0.0
 40
1.0
 50
285.0
 51
0.0
  0
ARC
  5
43
  8
PREDEFINITO
  6
CONTINUOUS
 62
     7
 10
106.39282968560001
 20
79.934838568499998
 30
0.0
 40
1.0
 50
0.0
 51
75.0
  0
ENDSEC
  0
EOF
